Make your own free website on Tripod.com

I am Legend Guitar Tab
by White Zombie



*** Standard tuning

Intro Main Verse Riff                   Ending #1         Ending #2
|----|---------------------------------|-----------------|-----------|
|----|---------------------------------|-----------------|-----------|
|----|---------------------------------|-----------------|-----------|
|----|-7/9-9\7/9-9\7/9-9\7/9-7/9-9\7/9-|-----------------|-10--7-----|
|-2--|-5/7-7\5/7-7\5/7-7\5/7-5/7-7\5/7-|-5-----7-----8\7-|-10--7-----|
|-0--|---------------------------------|-3-0-0-5-0-0-6\5-|-8---5-----|

Chorus
|--------------------------------------------------------------------|
|--------------------------------------------------------------------|
|--------------------------------------------------------------------|
|-----------------------4/5\4-2--------------------------------------|
|---3/4---3/4---4\3/4---2/3\2-0---3/4---3/4---3----------------------|
|-0-1/2-0-1/2-0-2\1/2-0---------0-1/2-0-1/2-0-1-3-2-1-0-1-2-3--------|

Slow Heavy Bridge Part  Middle Verse        Ending#1  Ending#2
|----------------------|-------------------|---------|---------------|
|----------------------|-------------------|---------|---------------|
|----------------------|-9-------9-------9-|---------|---------------|
|-2-3-2-5--------------|-9-------9-------9-|---------|---------------|
|-2-3-2-5-------5------|-7-------7-------7-|-8\7-5/7-|-5/7-8\7-------|
|-0-1-0-3-5-6-7---8-7--|---0-0-0---0-0-0---|-6\5-3/5-|-3/5-6\5-------|

Ending#3    Scale (I use) for solo Am
|---------||---|---|---|---|---|----|---|-12-|-13-|----|-15-|---|-17-|
|---------||---|---|---|---|---|-*--|---|-12-|-13-|----|-15-|---|----|
|---------||---|---|---|---|-*-|-*--|---|-12-|----|-14-|----|---|----|
|-9-------||---|---|-*-|---|-*-|-*--|---|-12-|----|-14-|-15-|---|----|
|-7-8-x-8-||-5-|---|-7-|-8-|---|-10-|---|-12-|----|-14-|-15-|---|----|
|---6-x-6-||-5-|---|-7-|-8-|---|-*--|---|----|----|----|----|---|----|