Make your own free website on Tripod.com

Soul Crusher Guitar Tab
by White Zombie


Intro

-||-------------------------------------------------||--------------------
------
-||-------------------------------------------------||--------------------
------
-||*-----7--8-----8--5-----------5--7--------------*||-----7--8-----8--5--
------
-||*--------------------7--0-----------5--6--------*||--------------------
7-----
-||------------------------------------------8--5---||--------------------
------
-||-------------------------------------------------||--------------------
------



                                    to begining

--------------------------------------||--||---------------------------|--
------
--------------------------------------||--||---------------------------|--
------
------5--7--------------6--6--6--6---*||--||*--2-----------------------|--
------
0-----------5--6--------6--6--6--6---*||--||*--2-----------------------|--
------
------------------8-----4--4--4--4----||--||---0--0--0--0--0--0--0--0--|--
------
--------------------------------------||--||---------------------------|--
------





-------------------------||--------------|--------------------------------
------
-------------------------||--------------|--------------------------------
------
3-----------------------*||--6--6--6--6--|-----7--8-----8--5-----------5--
7-----
3-----------------------*||--6--6--6--6--|--------------------7--0--------
------
1--1--1--1--1--1--1--1---||--4--4--4--4--|--------------------------------
------
-------------------------||--------------|--------------------------------
------





------------|-----------------------------------------------|-------------
------
------------|-----------------------------------------------|-------------
------
------------|-----7--8-----8--5-----------5--7--------------|-----7--8----
-8----
5--6--------|--------------------7--0-----------5--6--------|-------------
------
------8--5--|-----------------------------------------8--5--|-------------
------
------------|-----------------------------------------------|-------------
------





------------------------------|--------------|--------------------------|-
------
------------------------------|--------------|--------------------------|-
------
5-----------5--7--------------|--6--6--6--6--|--2-----------------------|-
-3----
---7--0-----------5--6--------|--6--6--6--6--|--2-----------------------|-
-3----
------------------------8--5--|--4--4--4--4--|--0--0--0--0--0--0--0--0--|-
-1----
------------------------------|--------------|--------------------------|-
------





---------------------||---------------------------------||--||------------
------
---------------------||---------------------------------||--||------------
------
---------------------||*-----5-7-----7--7--7--7--7--7--*||--||*-----------
------
---------------------||*-----5-7-----7--7--7--7--7--7--*||--||*-----------
------
1--1--1--1--1--1--1--||------3/5-----5--5--5--5--5--5---||--||------------
------
---------------------||---------------------------------||--||---0--0--0--
0-----





------r-----------------------|-------------------------------------------
------
------e-----------------------|-------------------------------------------
------
------s-----------------------|-------------------------------------------
------
---9--t--9-----------------9--|-----------------9-------------------------
------
---7-----7-----------------7--|-----------------7-----10--7---------------
------
---0-----0-----0--0--0-----0--|--0--0--0--0-----0------------10--7\6/7--10
------



              open fret is a grace note

----||---------||------------------------------------------|--------------
------
----||---------||------------------------------------------|--------------
------
---*||---------||*-----------------------------------------|--------------
------
---*||--4------||*--------------------------------------5--|--------------
------
----||--4~~~---||---------------------------------------5--|--------------
------
7---||--2------||---0--2-----0--2-----0--2-----0--2-----3--|--0--2-----0--
2-----





------------------------|--------------------------------------------|----
------
------------------------|--------------------------------------------|----
------
------------------------|--------------------------------------------|----
------
---------------------2--|--------------------------------------5--5--|----
------
---------------------2--|--------------------------------------5--5--|----
------
---0--2-----0--2-----0--|--0--2-----0--2-----0--2-----0--2-----3--3--|--0-
-2----



                                         outro

-------------------------------------||-----------------------------------
------
-------------------------------------||-----------------------------------
------
------------------------------3--2--*||-----------------------------------
------
------------------------------3--2--*||---7--8-----8--5-----------5--7----
------
------------------------------1--0---||------------------7--0-------------
-5----
---0--2-----0--2-----0--2------------||-----------------------------------
------



                                                            outro

---------|-----------------------------------------------|----------------
------
---------|-----------------------------------------------|----------------
------
---------|-----------------------------------------------|----------------
------
---------|--7--8-----8--5-----------5--7-----------------|---7--8-----8--5
------
6--------|-----------------7--0--------------5--6--------|----------------
------
---8--5--|-----------------------------------------8--5--|----------------
------



                                 outro

------------------------------|-------------------------------------------
------
------------------------------|-------------------------------------------
------
------------------------------|-------------------------------------------
------
---------5--7-----------------|---7--8-----8--5-----------5--7------------
------
7--0--------------5--6--------|------------------7--0--------------5--6---
------
------------------------8--5--|------------------------------------------8
------





---------------------------|----------------------------------------------
------
---------------------------|----------------------------------------------
------
---------------------------|----------------------------------------------
------
---6--6--6--6-----6-----6--|----------------------------------------------
------
---6--6--6--6-----6-----6--|----------------------------------------------
------
---4--4--4--4-----4-----4--|----------------------------------------------
------





==========================================================================
======
==                           TABLATURE EXPLANATION
   ==
==========================================================================
======

----------                            ----------
----5h8--- Hammeron                   ----(8)--- Ghost Note
----------                            ----------
----5p8--- Pulloff                    ----------

----------                            ----------
----5/8--- Slide Up                   -----x---- Dead Note
----------                            ----------
----5\8--- Slide Down                 ----------

----------                            ||------|| Repeat Start & End
----5~~~-- Vibrato                    ||*----*||
----------                            ||*----*||
----------                            ||------||

==========================================================================
======
This is the complete version of the song (I'm pretty sure anyways).
It may be a little confusing because of all of the repeats, but if you
listen to the original, it might be better to understand.