Make your own free website on Tripod.com

Warp Asylum Guitar Tab
by White Zombie


INTRO 0:14    0:47
----------0-0-----------------0-|------------------------|
----------0-0-----------------0-|------------------------|
----------9-9-----------------9-|-12-12--8-8--7-7--6--5--|
2-2--2-2--9-9--2-2--2-2--2-2--9-|-12-12--8-8--7-7--6--5--|
2-2--2-2--7-7--2-2--2-2--2-2--7-|-10-10--6-6--5-5--4--3--|
0-0--0-0--0-0--0-0--0-0--0-0--0-|------------------------|
\_/  \_/  \_/  \_/  \_/  \_/



VERSE 0:51
-------------------------------|
-------------------------------|
-------------------------------|
-------------------------------|
--7---5--7---5---7---5--7--7-5-|
0---0-\_/--0--\_/--0-------5-3-|


CHORUS 1:44
---------------------|----------------------|----------------------|
---------------------|----------------------|----------------------|
---------------------|----------------------|----------------------|
---2-----------------|----------------------|----------------------|
---2-----------------|----------------------|----------------7-----|
3b-0--3b-0-3b-5-0-3-6|--3b-0--3-5--5-6-3-5-6|3b-0--3-5-6-5-6---5-6-|


BRIDGE 2:55       2 times
---------------------------------------------------------|------------------|
7--9-----------------------------------------------------|------------------|
7--9-----------------------------------------------------|------------------|
5--7-------------------------0--2------------------------|5-------7-7-4-3-2-|
-----------------------------0--2------------------------|5-------7-7-4-3-2-|
------0--0-0--0-0-0-0-0-0-0-----0--0--0-0-0-0-0-0-0-0-0--|3--3-4--5-5-2-1-0-|


AFTER BRIDGE 3:21
----------------------------|
----------------------------|
------------------------9---|
------------------8-9-----8-|
--7-----7-------7-----7-----|
0---0-0---0-0-0-------------|


---------------------------|-----------------------------|
---------------------------|-----------------------------|
------------------------9--|--------------------9--------|
------------------8-9-----8|------------------8-----8-9--|
--------7-------7-----7----|--------7-------7-----7-----8|
0-0-0-0---0-0-0------------|0-0-0-0---0-0-0--------------|

3:35   4 times   power cords
------------------------------|   |-------------------|
--8-----8------------------8--|   |-------------------|
--9-----9--7-7/--9-9-9-7-9-7--|   |-------------------|
--9-----9--7-7/--9-9-9-7-9-5--|E E D D E E C D  |--5--5-4--4-3-3----|
--7-----7--5-5/--7-7-7-5-7----|   |--5--5-4--4-3-3----|
0-----0-----------------------|   |5-3--3-2--2-1-1----|
    \_/           \_/ 




b=bend

\_/=hold

0:00=cd time

/=slide up to